ISO-10303-21;
HEADER;
FILE_DESCRIPTION (( 'STEP AP203' ),
    '1' );
FILE_NAME ('QM-AAHWP-15-450-650-M.STEP',
    '2021-01-05T02:32:50',
    ( '' ),
    ( '' ),
    'SwSTEP 2.0',
    'SolidWorks 2020',
    '' );
FILE_SCHEMA (( 'CONFIG_CONTROL_DESIGN' ));
ENDSEC;

DATA;
#1 = VERTEX_POINT ( 'NONE', #55 ) ;
#2 = ADVANCED_FACE ( 'NONE', ( #77 ), #312, .F. ) ;
#3 = CARTESIAN_POINT ( 'NONE',  ( -1.614212418857619014, 0.000000000000000000, 0.000000000000000000 ) ) ;
#4 = EDGE_LOOP ( 'NONE', ( #6, #124, #50, #261 ) ) ;
#5 = DIRECTION ( 'NONE',  ( 0.000000000000000000, 0.000000000000000000, 1.000000000000000000 ) ) ;
#6 = ORIENTED_EDGE ( 'NONE', *, *, #242, .T. ) ;
#7 = AXIS2_PLACEMENT_3D ( 'NONE', #123, #311, #257 ) ;
#8 = PERSON_AND_ORGANIZATION ( #284, #208 ) ;
#9 = PRODUCT_RELATED_PRODUCT_CATEGORY ( 'detail', '', ( #333 ) ) ;
#10 = ORIENTED_EDGE ( 'NONE', *, *, #102, .T. ) ;
#11 = COORDINATED_UNIVERSAL_TIME_OFFSET ( 8, 0, .AHEAD. ) ;
#12 = ORIENTED_EDGE ( 'NONE', *, *, #83, .F. ) ;
#13 = APPROVAL_STATUS ( 'not_yet_approved' ) ;
#14 = CYLINDRICAL_SURFACE ( 'NONE', #165, 7.499999999999998224 ) ;
#15 = CIRCLE ( 'NONE', #129, 7.499999999999998224 ) ;
#16 = DIRECTION ( 'NONE',  ( -1.000000000000000000, -0.000000000000000000, -0.000000000000000000 ) ) ;
#17 = COORDINATED_UNIVERSAL_TIME_OFFSET ( 8, 0, .AHEAD. ) ;
#18 = DIRECTION ( 'NONE',  ( 0.000000000000000000, 0.000000000000000000, -1.000000000000000000 ) ) ;
#19 = EDGE_CURVE ( 'NONE', #296, #28, #100, .T. ) ;
#20 = VECTOR ( 'NONE', #168, 1000.000000000000000 ) ;
#21 = CARTESIAN_POINT ( 'NONE',  ( -3.000000000000000000, 9.184850993605147944E-16, -7.500000000000000000 ) ) ;
#22 = DIRECTION ( 'NONE',  ( -1.000000000000000000, -0.000000000000000000, -0.000000000000000000 ) ) ;
#23 = CYLINDRICAL_SURFACE ( 'NONE', #288, 12.69999999999999929 ) ;
#24 = EDGE_CURVE ( 'NONE', #60, #105, #174, .T. ) ;
#25 = ORIENTED_EDGE ( 'NONE', *, *, #315, .F. ) ;
#26 = AXIS2_PLACEMENT_3D ( 'NONE', #134, #147, #306 ) ;
#27 = DIRECTION ( 'NONE',  ( -1.000000000000000000, -0.000000000000000000, -0.000000000000000000 ) ) ;
#28 = VERTEX_POINT ( 'NONE', #159 ) ;
#29 = CYLINDRICAL_SURFACE ( 'NONE', #149, 7.499999999999998224 ) ;
#30 = ORIENTED_EDGE ( 'NONE', *, *, #254, .T. ) ;
#31 = APPROVAL ( #114, 'UNSPECIFIED' ) ;
#32 = ORIENTED_EDGE ( 'NONE', *, *, #150, .F. ) ;
#33 = COORDINATED_UNIVERSAL_TIME_OFFSET ( 8, 0, .AHEAD. ) ;
#34 = DATE_TIME_ROLE ( 'creation_date' ) ;
#35 = EDGE_CURVE ( 'NONE', #105, #177, #298, .T. ) ;
#36 = CARTESIAN_POINT ( 'NONE',  ( -1.614212418857619014, 0.000000000000000000, 7.499999999999998224 ) ) ;
#37 = PERSON_AND_ORGANIZATION_ROLE ( 'creator' ) ;
#38 = CARTESIAN_POINT ( 'NONE',  ( -3.000000000000000000, 7.500000000000000000, 0.000000000000000000 ) ) ;
#39 = ADVANCED_FACE ( 'NONE', ( #167 ), #14, .F. ) ;
#40 = APPROVAL_DATE_TIME ( #140, #127 ) ;
#41 = LINE ( 'NONE', #36, #20 ) ;
#42 = DIRECTION ( 'NONE',  ( 1.000000000000000000, 0.000000000000000000, 0.000000000000000000 ) ) ;
#43 = EDGE_CURVE ( 'NONE', #210, #28, #220, .T. ) ;
#44 = DIRECTION ( 'NONE',  ( 0.000000000000000000, 0.000000000000000000, 1.000000000000000000 ) ) ;
#45 = CARTESIAN_POINT ( 'NONE',  ( 3.000000000000000000, 9.184850993605144000E-16, -7.499999999999997335 ) ) ;
#46 = UNCERTAINTY_MEASURE_WITH_UNIT (LENGTH_MEASURE( 1.000000000000000082E-05 ), #70, 'distance_accuracy_value', 'NONE');
#47 = CC_DESIGN_APPROVAL ( #289, ( #71 ) ) ;
#48 = PRODUCT_DEFINITION_SHAPE ( 'NONE', 'NONE',  #71 ) ;
#49 = CYLINDRICAL_SURFACE ( 'NONE', #252, 7.499999999999998224 ) ;
#50 = ORIENTED_EDGE ( 'NONE', *, *, #111, .F. ) ;
#51 = DIRECTION ( 'NONE',  ( -0.000000000000000000, 0.000000000000000000, 1.000000000000000000 ) ) ;
#52 = ORIENTED_EDGE ( 'NONE', *, *, #242, .F. ) ;
#53 = EDGE_CURVE ( 'NONE', #291, #110, #267, .T. ) ;
#54 = APPROVAL_DATE_TIME ( #211, #31 ) ;
#55 = CARTESIAN_POINT ( 'NONE',  ( -0.5000000000000004441, 9.184850993605145972E-16, -7.499999999999998224 ) ) ;
#56 = DATE_AND_TIME ( #292, #65 ) ;
#57 = CARTESIAN_POINT ( 'NONE',  ( -3.000000000000000000, 0.000000000000000000, 0.000000000000000000 ) ) ;
#58 = AXIS2_PLACEMENT_3D ( 'NONE', #195, #300, #120 ) ;
#59 = AXIS2_PLACEMENT_3D ( 'NONE', #222, #241, #131 ) ;
#60 = VERTEX_POINT ( 'NONE', #214 ) ;
#61 = DIRECTION ( 'NONE',  ( 1.000000000000000000, 0.000000000000000000, 0.000000000000000000 ) ) ;
#62 = DIRECTION ( 'NONE',  ( 0.000000000000000000, 0.000000000000000000, -1.000000000000000000 ) ) ;
#63 = LINE ( 'NONE', #92, #121 ) ;
#64 = CLOSED_SHELL ( 'NONE', ( #190, #39, #276, #91, #2, #255, #133, #246, #329, #86 ) ) ;
#65 = LOCAL_TIME ( 10, 32, 50.00000000000000000, #184 ) ;
#66 = DIRECTION ( 'NONE',  ( -1.000000000000000000, -0.000000000000000000, -0.000000000000000000 ) ) ;
#67 = CARTESIAN_POINT ( 'NONE',  ( -1.614212418857619014, 0.000000000000000000, 7.499999999999998224 ) ) ;
#68 = LINE ( 'NONE', #305, #166 ) ;
#69 = VECTOR ( 'NONE', #163, 1000.000000000000000 ) ;
#70 =( LENGTH_UNIT ( ) NAMED_UNIT ( * ) SI_UNIT ( .MILLI., .METRE. ) );
#71 = PRODUCT_DEFINITION ( 'UNKNOWN', '', #78, #256 ) ;
#72 = PLANE ( 'NONE',  #275 ) ;
#73 = CARTESIAN_POINT ( 'NONE',  ( -0.5000000000000004441, 0.000000000000000000, 0.000000000000000000 ) ) ;
#74 = APPROVAL_PERSON_ORGANIZATION ( #294, #289, #273 ) ;
#75 = ORIENTED_EDGE ( 'NONE', *, *, #282, .F. ) ;
#76 = DIRECTION ( 'NONE',  ( -1.000000000000000000, -0.000000000000000000, -0.000000000000000000 ) ) ;
#77 = FACE_OUTER_BOUND ( 'NONE', #239, .T. ) ;
#78 = PRODUCT_DEFINITION_FORMATION_WITH_SPECIFIED_SOURCE ( 'ANY', '', #333, .NOT_KNOWN. ) ;
#79 = DATE_TIME_ROLE ( 'classification_date' ) ;
#80 = ORIENTED_EDGE ( 'NONE', *, *, #102, .F. ) ;
#81 = DATE_AND_TIME ( #213, #175 ) ;
#82 = CARTESIAN_POINT ( 'NONE',  ( -1.614212418857619014, 0.000000000000000000, 0.000000000000000000 ) ) ;
#83 = EDGE_CURVE ( 'NONE', #60, #320, #63, .T. ) ;
#84 = CALENDAR_DATE ( 2021, 5, 1 ) ;
#85 = VERTEX_POINT ( 'NONE', #272 ) ;
#86 = ADVANCED_FACE ( 'NONE', ( #145 ), #302, .F. ) ;
#87 = AXIS2_PLACEMENT_3D ( 'NONE', #169, #307, #5 ) ;
#88 = APPROVAL_ROLE ( '' ) ;
#89 = DIRECTION ( 'NONE',  ( -0.000000000000000000, 0.000000000000000000, 1.000000000000000000 ) ) ;
#90 = SECURITY_CLASSIFICATION_LEVEL ( 'unclassified' ) ;
#91 = ADVANCED_FACE ( 'NONE', ( #194 ), #330, .F. ) ;
#92 = CARTESIAN_POINT ( 'NONE',  ( -1.614212418857619014, 1.555301434917138433E-15, -12.69999999999999929 ) ) ;
#93 = DIRECTION ( 'NONE',  ( -1.000000000000000000, -0.000000000000000000, -0.000000000000000000 ) ) ;
#94 = AXIS2_PLACEMENT_3D ( 'NONE', #230, #76, #253 ) ;
#95 = CARTESIAN_POINT ( 'NONE',  ( -1.614212418857619014, 0.000000000000000000, 0.000000000000000000 ) ) ;
#96 = CARTESIAN_POINT ( 'NONE',  ( -1.614212418857619014, 0.000000000000000000, 12.69999999999999929 ) ) ;
#97 = FACE_BOUND ( 'NONE', #290, .T. ) ;
#98 = CIRCLE ( 'NONE', #87, 7.499999999999997335 ) ;
#99 = CARTESIAN_POINT ( 'NONE',  ( -3.000000000000000000, 0.000000000000000000, 0.000000000000000000 ) ) ;
#100 = CIRCLE ( 'NONE', #327, 7.500000000000000000 ) ;
#101 = CIRCLE ( 'NONE', #295, 7.499999999999998224 ) ;
#102 = EDGE_CURVE ( 'NONE', #110, #135, #41, .T. ) ;
#103 = ORIENTED_EDGE ( 'NONE', *, *, #216, .T. ) ;
#104 = DIRECTION ( 'NONE',  ( 0.000000000000000000, 0.000000000000000000, 1.000000000000000000 ) ) ;
#105 = VERTEX_POINT ( 'NONE', #188 ) ;
#106 = CC_DESIGN_PERSON_AND_ORGANIZATION_ASSIGNMENT ( #265, #37, ( #78 ) ) ;
#107 = DIRECTION ( 'NONE',  ( 0.000000000000000000, 0.000000000000000000, 1.000000000000000000 ) ) ;
#108 = ORIENTED_EDGE ( 'NONE', *, *, #53, .T. ) ;
#109 = LOCAL_TIME ( 10, 32, 50.00000000000000000, #162 ) ;
#110 = VERTEX_POINT ( 'NONE', #192 ) ;
#111 = EDGE_CURVE ( 'NONE', #177, #320, #202, .T. ) ;
#112 = PERSON_AND_ORGANIZATION ( #284, #208 ) ;
#113 = ORIENTED_EDGE ( 'NONE', *, *, #43, .F. ) ;
#114 = APPROVAL_STATUS ( 'not_yet_approved' ) ;
#115 = FACE_OUTER_BOUND ( 'NONE', #231, .T. ) ;
#116 = CIRCLE ( 'NONE', #94, 7.500000000000000000 ) ;
#117 = PERSON_AND_ORGANIZATION ( #284, #208 ) ;
#118 = SHAPE_DEFINITION_REPRESENTATION ( #48, #278 ) ;
#119 = CARTESIAN_POINT ( 'NONE',  ( -3.000000000000000000, 0.000000000000000000, 0.000000000000000000 ) ) ;
#120 = DIRECTION ( 'NONE',  ( 0.000000000000000000, 0.000000000000000000, 1.000000000000000000 ) ) ;
#121 = VECTOR ( 'NONE', #328, 1000.000000000000000 ) ;
#122 = DIRECTION ( 'NONE',  ( -1.000000000000000000, -0.000000000000000000, -0.000000000000000000 ) ) ;
#123 = CARTESIAN_POINT ( 'NONE',  ( -3.000000000000000000, 0.000000000000000000, 0.000000000000000000 ) ) ;
#124 = ORIENTED_EDGE ( 'NONE', *, *, #83, .T. ) ;
#125 = APPROVAL_PERSON_ORGANIZATION ( #112, #31, #88 ) ;
#126 = DIRECTION ( 'NONE',  ( 1.000000000000000000, 0.000000000000000000, 0.000000000000000000 ) ) ;
#127 = APPROVAL ( #299, 'UNSPECIFIED' ) ;
#128 = ORIENTED_EDGE ( 'NONE', *, *, #196, .T. ) ;
#129 = AXIS2_PLACEMENT_3D ( 'NONE', #73, #172, #178 ) ;
#130 = ORIENTED_EDGE ( 'NONE', *, *, #35, .T. ) ;
#131 = DIRECTION ( 'NONE',  ( 0.000000000000000000, 0.000000000000000000, 1.000000000000000000 ) ) ;
#132 = ORIENTED_EDGE ( 'NONE', *, *, #19, .T. ) ;
#133 = ADVANCED_FACE ( 'NONE', ( #274, #115 ), #244, .F. ) ;
#134 = CARTESIAN_POINT ( 'NONE',  ( 3.000000000000000000, 0.000000000000000000, 0.000000000000000000 ) ) ;
#135 = VERTEX_POINT ( 'NONE', #139 ) ;
#136 = DIRECTION ( 'NONE',  ( 0.000000000000000000, 0.000000000000000000, 1.000000000000000000 ) ) ;
#137 = EDGE_LOOP ( 'NONE', ( #227, #205 ) ) ;
#138 = ORIENTED_EDGE ( 'NONE', *, *, #19, .F. ) ;
#139 = CARTESIAN_POINT ( 'NONE',  ( 0.5000000000000008882, 0.000000000000000000, 7.500000000000000000 ) ) ;
#140 = DATE_AND_TIME ( #84, #314 ) ;
#141 = DIRECTION ( 'NONE',  ( -1.000000000000000000, -0.000000000000000000, -0.000000000000000000 ) ) ;
#142 = APPROVAL_PERSON_ORGANIZATION ( #217, #127, #187 ) ;
#143 = DIRECTION ( 'NONE',  ( -1.000000000000000000, -0.000000000000000000, -0.000000000000000000 ) ) ;
#144 = CYLINDRICAL_SURFACE ( 'NONE', #245, 12.69999999999999929 ) ;
#145 = FACE_OUTER_BOUND ( 'NONE', #137, .T. ) ;
#146 = CIRCLE ( 'NONE', #59, 7.500000000000000000 ) ;
#147 = DIRECTION ( 'NONE',  ( -1.000000000000000000, -0.000000000000000000, -0.000000000000000000 ) ) ;
#148 =( NAMED_UNIT ( * ) SI_UNIT ( $, .STERADIAN. ) SOLID_ANGLE_UNIT ( ) );
#149 = AXIS2_PLACEMENT_3D ( 'NONE', #3, #223, #104 ) ;
#150 = EDGE_CURVE ( 'NONE', #1, #296, #219, .T. ) ;
#151 =( GEOMETRIC_REPRESENTATION_CONTEXT ( 3 ) GLOBAL_UNCERTAINTY_ASSIGNED_CONTEXT ( ( #46 ) ) GLOBAL_UNIT_ASSIGNED_CONTEXT ( ( #70, #283, #148 ) ) REPRESENTATION_CONTEXT ( 'NONE', 'WORKASPACE' ) );
#152 = ORIENTED_EDGE ( 'NONE', *, *, #150, .T. ) ;
#153 = CARTESIAN_POINT ( 'NONE',  ( -0.5000000000000004441, 0.000000000000000000, 0.000000000000000000 ) ) ;
#154 = ORIENTED_EDGE ( 'NONE', *, *, #254, .F. ) ;
#155 = PERSON_AND_ORGANIZATION ( #284, #208 ) ;
#156 = PERSON_AND_ORGANIZATION_ROLE ( 'design_supplier' ) ;
#157 = AXIS2_PLACEMENT_3D ( 'NONE', #248, #277, #18 ) ;
#158 = EDGE_LOOP ( 'NONE', ( #317, #103, #30, #80 ) ) ;
#159 = CARTESIAN_POINT ( 'NONE',  ( -3.000000000000000000, 0.000000000000000000, 7.500000000000000000 ) ) ;
#160 = APPLICATION_PROTOCOL_DEFINITION ( 'international standard', 'config_control_design', 1994, #237 ) ;
#161 = DIRECTION ( 'NONE',  ( 0.000000000000000000, 0.000000000000000000, 1.000000000000000000 ) ) ;
#162 = COORDINATED_UNIVERSAL_TIME_OFFSET ( 8, 0, .AHEAD. ) ;
#163 = DIRECTION ( 'NONE',  ( -1.000000000000000000, -0.000000000000000000, -0.000000000000000000 ) ) ;
#164 = CC_DESIGN_DATE_AND_TIME_ASSIGNMENT ( #321, #34, ( #71 ) ) ;
#165 = AXIS2_PLACEMENT_3D ( 'NONE', #95, #143, #303 ) ;
#166 = VECTOR ( 'NONE', #22, 1000.000000000000000 ) ;
#167 = FACE_OUTER_BOUND ( 'NONE', #263, .T. ) ;
#168 = DIRECTION ( 'NONE',  ( -1.000000000000000000, -0.000000000000000000, -0.000000000000000000 ) ) ;
#169 = CARTESIAN_POINT ( 'NONE',  ( 3.000000000000000000, 0.000000000000000000, 0.000000000000000000 ) ) ;
#170 = LOCAL_TIME ( 10, 32, 50.00000000000000000, #11 ) ;
#171 = DIRECTION ( 'NONE',  ( 0.000000000000000000, 0.000000000000000000, 1.000000000000000000 ) ) ;
#172 = DIRECTION ( 'NONE',  ( 1.000000000000000000, 0.000000000000000000, 0.000000000000000000 ) ) ;
#173 = ORIENTED_EDGE ( 'NONE', *, *, #335, .T. ) ;
#174 = CIRCLE ( 'NONE', #58, 12.69999999999999929 ) ;
#175 = LOCAL_TIME ( 10, 32, 50.00000000000000000, #17 ) ;
#176 = DIRECTION ( 'NONE',  ( -1.000000000000000000, -0.000000000000000000, -0.000000000000000000 ) ) ;
#177 = VERTEX_POINT ( 'NONE', #251 ) ;
#178 = DIRECTION ( 'NONE',  ( 0.000000000000000000, 0.000000000000000000, -1.000000000000000000 ) ) ;
#179 = CC_DESIGN_SECURITY_CLASSIFICATION ( #198, ( #78 ) ) ;
#180 = ORIENTED_EDGE ( 'NONE', *, *, #315, .T. ) ;
#181 = EDGE_LOOP ( 'NONE', ( #209, #154 ) ) ;
#182 = CC_DESIGN_DATE_AND_TIME_ASSIGNMENT ( #81, #79, ( #198 ) ) ;
#183 = DIRECTION ( 'NONE',  ( -1.000000000000000000, -0.000000000000000000, -0.000000000000000000 ) ) ;
#184 = COORDINATED_UNIVERSAL_TIME_OFFSET ( 8, 0, .AHEAD. ) ;
#185 = ORIENTED_EDGE ( 'NONE', *, *, #216, .F. ) ;
#186 = CIRCLE ( 'NONE', #7, 7.500000000000000000 ) ;
#187 = APPROVAL_ROLE ( '' ) ;
#188 = CARTESIAN_POINT ( 'NONE',  ( 3.000000000000000000, 0.000000000000000000, 12.69999999999999929 ) ) ;
#189 = CALENDAR_DATE ( 2021, 5, 1 ) ;
#190 = ADVANCED_FACE ( 'NONE', ( #325 ), #144, .T. ) ;
#191 = CARTESIAN_POINT ( 'NONE',  ( -1.614212418857619014, 0.000000000000000000, 0.000000000000000000 ) ) ;
#192 = CARTESIAN_POINT ( 'NONE',  ( 3.000000000000000000, 0.000000000000000000, 7.499999999999997335 ) ) ;
#193 = AXIS2_PLACEMENT_3D ( 'NONE', #297, #136, #61 ) ;
#194 = FACE_OUTER_BOUND ( 'NONE', #181, .T. ) ;
#195 = CARTESIAN_POINT ( 'NONE',  ( 3.000000000000000000, 0.000000000000000000, 0.000000000000000000 ) ) ;
#196 = EDGE_CURVE ( 'NONE', #135, #85, #146, .T. ) ;
#197 = DIRECTION ( 'NONE',  ( -1.000000000000000000, 0.000000000000000000, -0.000000000000000000 ) ) ;
#198 = SECURITY_CLASSIFICATION ( '', '', #90 ) ;
#199 = CARTESIAN_POINT ( 'NONE',  ( -3.000000000000000000, 1.555301434917138433E-15, -12.69999999999999929 ) ) ;
#200 = APPLICATION_CONTEXT ( 'configuration controlled 3d designs of mechanical parts and assemblies' ) ;
#201 = AXIS2_PLACEMENT_3D ( 'NONE', #304, #270, #89 ) ;
#202 = CIRCLE ( 'NONE', #221, 12.69999999999999929 ) ;
#203 = EDGE_LOOP ( 'NONE', ( #25, #138 ) ) ;
#204 = DIRECTION ( 'NONE',  ( 0.000000000000000000, 0.000000000000000000, 1.000000000000000000 ) ) ;
#205 = ORIENTED_EDGE ( 'NONE', *, *, #258, .F. ) ;
#206 = DIRECTION ( 'NONE',  ( -1.000000000000000000, -0.000000000000000000, -0.000000000000000000 ) ) ;
#207 = CC_DESIGN_PERSON_AND_ORGANIZATION_ASSIGNMENT ( #247, #269, ( #333 ) ) ;
#208 = ORGANIZATION ( 'UNSPECIFIED', 'UNSPECIFIED', '' ) ;
#209 = ORIENTED_EDGE ( 'NONE', *, *, #196, .F. ) ;
#210 = VERTEX_POINT ( 'NONE', #260 ) ;
#211 = DATE_AND_TIME ( #189, #109 ) ;
#212 = ORIENTED_EDGE ( 'NONE', *, *, #240, .T. ) ;
#213 = CALENDAR_DATE ( 2021, 5, 1 ) ;
#214 = CARTESIAN_POINT ( 'NONE',  ( 3.000000000000000000, 1.555301434917138433E-15, -12.69999999999999929 ) ) ;
#215 = AXIS2_PLACEMENT_3D ( 'NONE', #99, #206, #171 ) ;
#216 = EDGE_CURVE ( 'NONE', #291, #85, #68, .T. ) ;
#217 = PERSON_AND_ORGANIZATION ( #284, #208 ) ;
#218 = CARTESIAN_POINT ( 'NONE',  ( -1.614212418857619014, 9.184850993605145972E-16, -7.499999999999998224 ) ) ;
#219 = LINE ( 'NONE', #218, #69 ) ;
#220 = LINE ( 'NONE', #67, #313 ) ;
#221 = AXIS2_PLACEMENT_3D ( 'NONE', #119, #141, #323 ) ;
#222 = CARTESIAN_POINT ( 'NONE',  ( 0.5000000000000008882, 0.000000000000000000, 0.000000000000000000 ) ) ;
#223 = DIRECTION ( 'NONE',  ( -1.000000000000000000, -0.000000000000000000, -0.000000000000000000 ) ) ;
#224 = FACE_OUTER_BOUND ( 'NONE', #310, .T. ) ;
#225 = EDGE_LOOP ( 'NONE', ( #52, #286 ) ) ;
#226 = CC_DESIGN_PERSON_AND_ORGANIZATION_ASSIGNMENT ( #155, #271, ( #71 ) ) ;
#227 = ORIENTED_EDGE ( 'NONE', *, *, #335, .F. ) ;
#228 = AXIS2_PLACEMENT_3D ( 'NONE', #82, #183, #293 ) ;
#229 = ORIENTED_EDGE ( 'NONE', *, *, #111, .T. ) ;
#230 = CARTESIAN_POINT ( 'NONE',  ( 0.5000000000000008882, 0.000000000000000000, 0.000000000000000000 ) ) ;
#231 = EDGE_LOOP ( 'NONE', ( #229, #266 ) ) ;
#232 = FACE_OUTER_BOUND ( 'NONE', #259, .T. ) ;
#233 = ORIENTED_EDGE ( 'NONE', *, *, #43, .T. ) ;
#234 = APPROVAL_DATE_TIME ( #56, #289 ) ;
#235 = CC_DESIGN_APPROVAL ( #31, ( #78 ) ) ;
#236 = ORIENTED_EDGE ( 'NONE', *, *, #24, .T. ) ;
#237 = APPLICATION_CONTEXT ( 'configuration controlled 3d designs of mechanical parts and assemblies' ) ;
#238 = PERSON_AND_ORGANIZATION_ROLE ( 'classification_officer' ) ;
#239 = EDGE_LOOP ( 'NONE', ( #185, #268, #10, #128 ) ) ;
#240 = EDGE_CURVE ( 'NONE', #110, #291, #98, .T. ) ;
#241 = DIRECTION ( 'NONE',  ( -1.000000000000000000, -0.000000000000000000, -0.000000000000000000 ) ) ;
#242 = EDGE_CURVE ( 'NONE', #105, #60, #301, .T. ) ;
#243 = MECHANICAL_CONTEXT ( 'NONE', #200, 'mechanical' ) ;
#244 = PLANE ( 'NONE',  #281 ) ;
#245 = AXIS2_PLACEMENT_3D ( 'NONE', #191, #326, #279 ) ;
#246 = ADVANCED_FACE ( 'NONE', ( #224 ), #23, .T. ) ;
#247 = PERSON_AND_ORGANIZATION ( #284, #208 ) ;
#248 = CARTESIAN_POINT ( 'NONE',  ( -0.5000000000000004441, 7.500000000000000000, 0.000000000000000000 ) ) ;
#249 = CC_DESIGN_PERSON_AND_ORGANIZATION_ASSIGNMENT ( #8, #238, ( #198 ) ) ;
#250 = CARTESIAN_POINT ( 'NONE',  ( 3.000000000000000000, 0.000000000000000000, 0.000000000000000000 ) ) ;
#251 = CARTESIAN_POINT ( 'NONE',  ( -3.000000000000000000, 0.000000000000000000, 12.69999999999999929 ) ) ;
#252 = AXIS2_PLACEMENT_3D ( 'NONE', #280, #27, #204 ) ;
#253 = DIRECTION ( 'NONE',  ( 0.000000000000000000, 0.000000000000000000, 1.000000000000000000 ) ) ;
#254 = EDGE_CURVE ( 'NONE', #85, #135, #116, .T. ) ;
#255 = ADVANCED_FACE ( 'NONE', ( #232 ), #49, .F. ) ;
#256 = DESIGN_CONTEXT ( 'detailed design', #237, 'design' ) ;
#257 = DIRECTION ( 'NONE',  ( 0.000000000000000000, 0.000000000000000000, 1.000000000000000000 ) ) ;
#258 = EDGE_CURVE ( 'NONE', #1, #210, #15, .T. ) ;
#259 = EDGE_LOOP ( 'NONE', ( #32, #316, #233, #180 ) ) ;
#260 = CARTESIAN_POINT ( 'NONE',  ( -0.5000000000000004441, 0.000000000000000000, 7.499999999999998224 ) ) ;
#261 = ORIENTED_EDGE ( 'NONE', *, *, #35, .F. ) ;
#262 = DIRECTION ( 'NONE',  ( 0.000000000000000000, 0.000000000000000000, -1.000000000000000000 ) ) ;
#263 = EDGE_LOOP ( 'NONE', ( #173, #152, #132, #113 ) ) ;
#264 = CC_DESIGN_PERSON_AND_ORGANIZATION_ASSIGNMENT ( #117, #156, ( #78 ) ) ;
#265 = PERSON_AND_ORGANIZATION ( #284, #208 ) ;
#266 = ORIENTED_EDGE ( 'NONE', *, *, #282, .T. ) ;
#267 = CIRCLE ( 'NONE', #322, 7.499999999999997335 ) ;
#268 = ORIENTED_EDGE ( 'NONE', *, *, #240, .F. ) ;
#269 = PERSON_AND_ORGANIZATION_ROLE ( 'design_owner' ) ;
#270 = DIRECTION ( 'NONE',  ( -1.000000000000000000, 0.000000000000000000, -0.000000000000000000 ) ) ;
#271 = PERSON_AND_ORGANIZATION_ROLE ( 'creator' ) ;
#272 = CARTESIAN_POINT ( 'NONE',  ( 0.5000000000000008882, 9.184850993605147944E-16, -7.500000000000000000 ) ) ;
#273 = APPROVAL_ROLE ( '' ) ;
#274 = FACE_BOUND ( 'NONE', #203, .T. ) ;
#275 = AXIS2_PLACEMENT_3D ( 'NONE', #287, #197, #51 ) ;
#276 = ADVANCED_FACE ( 'NONE', ( #332 ), #29, .F. ) ;
#277 = DIRECTION ( 'NONE',  ( 1.000000000000000000, 0.000000000000000000, 0.000000000000000000 ) ) ;
#278 = ADVANCED_BREP_SHAPE_REPRESENTATION ( 'QM-AAHWP-15-450-650-M', ( #318, #193 ), #151 ) ;
#279 = DIRECTION ( 'NONE',  ( 0.000000000000000000, 0.000000000000000000, 1.000000000000000000 ) ) ;
#280 = CARTESIAN_POINT ( 'NONE',  ( -1.614212418857619014, 0.000000000000000000, 0.000000000000000000 ) ) ;
#281 = AXIS2_PLACEMENT_3D ( 'NONE', #38, #42, #62 ) ;
#282 = EDGE_CURVE ( 'NONE', #320, #177, #309, .T. ) ;
#283 =( NAMED_UNIT ( * ) PLANE_ANGLE_UNIT ( ) SI_UNIT ( $, .RADIAN. ) );
#284 = PERSON ( 'UNSPECIFIED', 'UNSPECIFIED', 'UNSPECIFIED', ('UNSPECIFIED'), ('UNSPECIFIED'), ('UNSPECIFIED') ) ;
#285 = CARTESIAN_POINT ( 'NONE',  ( -1.614212418857619014, 0.000000000000000000, 0.000000000000000000 ) ) ;
#286 = ORIENTED_EDGE ( 'NONE', *, *, #24, .F. ) ;
#287 = CARTESIAN_POINT ( 'NONE',  ( 3.000000000000000000, 12.69999999999999929, 0.000000000000000000 ) ) ;
#288 = AXIS2_PLACEMENT_3D ( 'NONE', #285, #176, #107 ) ;
#289 = APPROVAL ( #13, 'UNSPECIFIED' ) ;
#290 = EDGE_LOOP ( 'NONE', ( #212, #108 ) ) ;
#291 = VERTEX_POINT ( 'NONE', #45 ) ;
#292 = CALENDAR_DATE ( 2021, 5, 1 ) ;
#293 = DIRECTION ( 'NONE',  ( 0.000000000000000000, 0.000000000000000000, 1.000000000000000000 ) ) ;
#294 = PERSON_AND_ORGANIZATION ( #284, #208 ) ;
#295 = AXIS2_PLACEMENT_3D ( 'NONE', #153, #126, #262 ) ;
#296 = VERTEX_POINT ( 'NONE', #21 ) ;
#297 = CARTESIAN_POINT ( 'NONE',  ( 0.000000000000000000, 0.000000000000000000, 0.000000000000000000 ) ) ;
#298 = LINE ( 'NONE', #96, #308 ) ;
#299 = APPROVAL_STATUS ( 'not_yet_approved' ) ;
#300 = DIRECTION ( 'NONE',  ( -1.000000000000000000, -0.000000000000000000, -0.000000000000000000 ) ) ;
#301 = CIRCLE ( 'NONE', #26, 12.69999999999999929 ) ;
#302 = PLANE ( 'NONE',  #157 ) ;
#303 = DIRECTION ( 'NONE',  ( 0.000000000000000000, 0.000000000000000000, 1.000000000000000000 ) ) ;
#304 = CARTESIAN_POINT ( 'NONE',  ( 0.5000000000000004441, 7.500000000000000000, 0.000000000000000000 ) ) ;
#305 = CARTESIAN_POINT ( 'NONE',  ( -1.614212418857619014, 9.184850993605145972E-16, -7.499999999999998224 ) ) ;
#306 = DIRECTION ( 'NONE',  ( 0.000000000000000000, 0.000000000000000000, 1.000000000000000000 ) ) ;
#307 = DIRECTION ( 'NONE',  ( -1.000000000000000000, -0.000000000000000000, -0.000000000000000000 ) ) ;
#308 = VECTOR ( 'NONE', #16, 1000.000000000000000 ) ;
#309 = CIRCLE ( 'NONE', #215, 12.69999999999999929 ) ;
#310 = EDGE_LOOP ( 'NONE', ( #12, #236, #130, #75 ) ) ;
#311 = DIRECTION ( 'NONE',  ( -1.000000000000000000, -0.000000000000000000, -0.000000000000000000 ) ) ;
#312 = CYLINDRICAL_SURFACE ( 'NONE', #228, 7.499999999999998224 ) ;
#313 = VECTOR ( 'NONE', #93, 1000.000000000000000 ) ;
#314 = LOCAL_TIME ( 10, 32, 50.00000000000000000, #33 ) ;
#315 = EDGE_CURVE ( 'NONE', #28, #296, #186, .T. ) ;
#316 = ORIENTED_EDGE ( 'NONE', *, *, #258, .T. ) ;
#317 = ORIENTED_EDGE ( 'NONE', *, *, #53, .F. ) ;
#318 = MANIFOLD_SOLID_BREP ( 'Ðý×', #64 ) ;
#319 = APPLICATION_PROTOCOL_DEFINITION ( 'international standard', 'config_control_design', 1994, #200 ) ;
#320 = VERTEX_POINT ( 'NONE', #199 ) ;
#321 = DATE_AND_TIME ( #324, #170 ) ;
#322 = AXIS2_PLACEMENT_3D ( 'NONE', #250, #66, #161 ) ;
#323 = DIRECTION ( 'NONE',  ( 0.000000000000000000, 0.000000000000000000, 1.000000000000000000 ) ) ;
#324 = CALENDAR_DATE ( 2021, 5, 1 ) ;
#325 = FACE_OUTER_BOUND ( 'NONE', #4, .T. ) ;
#326 = DIRECTION ( 'NONE',  ( -1.000000000000000000, -0.000000000000000000, -0.000000000000000000 ) ) ;
#327 = AXIS2_PLACEMENT_3D ( 'NONE', #57, #122, #44 ) ;
#328 = DIRECTION ( 'NONE',  ( -1.000000000000000000, -0.000000000000000000, -0.000000000000000000 ) ) ;
#329 = ADVANCED_FACE ( 'NONE', ( #331, #97 ), #72, .F. ) ;
#330 = PLANE ( 'NONE',  #201 ) ;
#331 = FACE_OUTER_BOUND ( 'NONE', #225, .T. ) ;
#332 = FACE_OUTER_BOUND ( 'NONE', #158, .T. ) ;
#333 = PRODUCT ( 'QM-AAHWP-15-450-650-M', 'QM-AAHWP-15-450-650-M', '', ( #243 ) ) ;
#334 = CC_DESIGN_APPROVAL ( #127, ( #198 ) ) ;
#335 = EDGE_CURVE ( 'NONE', #210, #1, #101, .T. ) ;
ENDSEC;
END-ISO-10303-21;
